ISO-10303-21;
HEADER;
/* Generated by software containing ST-Developer
 * from STEP Tools, Inc. (www.steptools.com) 
 */
/* OPTION: using custom renumber hook */

FILE_DESCRIPTION(
/* description */ ('STEP AP242',
'CAx-IF Rec.Pracs.---Representation and Presentation of Product Manufa
cturing Information (PMI)---4.0---2014-10-13',
'CAx-IF Rec.Pracs.---3D Tessellated Geometry---0.4---2014-09-14','2;1'),

/* implementation_level */ '2;1');

FILE_NAME(
/* name */ '64f0b8947df1ce1b9a4c75c4',
/* time_stamp */ '2023-08-31T15:58:13Z',
/* author */ (''),
/* organization */ (''),
/* preprocessor_version */ 'ST-DEVELOPER v19.4',
/* originating_system */ '  ',
/* authorisation */ '  ');

FILE_SCHEMA (('AP242_MANAGED_MODEL_BASED_3D_ENGINEERING_MIM_LF { 1 0 10303 442 1 1 4 }'));
ENDSEC;

DATA;
#10=SHAPE_REPRESENTATION_RELATIONSHIP('','',#161,#11);
#11=ADVANCED_BREP_SHAPE_REPRESENTATION('',(#159),#305);
#12=LINE('',#300,#14);
#13=LINE('',#302,#15);
#14=VECTOR('',#203,1.);
#15=VECTOR('',#206,1.);
#16=B_SPLINE_SURFACE_WITH_KNOTS('',3,1,((#237,#238),(#239,#240),(#241,#242),
(#243,#244)),.SURF_OF_LINEAR_EXTRUSION.,.F.,.F.,.F.,(4,4),(2,2),(0.,1.),
(0.,1.),.PIECEWISE_BEZIER_KNOTS.);
#17=B_SPLINE_SURFACE_WITH_KNOTS('',3,1,((#259,#260),(#261,#262),(#263,#264),
(#265,#266)),.SURF_OF_LINEAR_EXTRUSION.,.F.,.F.,.F.,(4,4),(2,2),(0.,0.224914849943671),
(0.,1.),.PIECEWISE_BEZIER_KNOTS.);
#18=B_SPLINE_SURFACE_WITH_KNOTS('',3,1,((#276,#277),(#278,#279),(#280,#281),
(#282,#283)),.SURF_OF_LINEAR_EXTRUSION.,.F.,.F.,.F.,(4,4),(2,2),(0.682378397303378,
1.),(0.,1.),.PIECEWISE_BEZIER_KNOTS.);
#19=CYLINDRICAL_SURFACE('',#168,0.0026);
#20=CYLINDRICAL_SURFACE('',#174,0.005);
#21=CYLINDRICAL_SURFACE('',#175,0.0126063);
#22=CYLINDRICAL_SURFACE('',#176,0.005);
#23=B_SPLINE_CURVE_WITH_KNOTS('',3,(#220,#221,#222,#223),.UNSPECIFIED.,
 .F.,.F.,(4,4),(0.,1.),.UNSPECIFIED.);
#24=B_SPLINE_CURVE_WITH_KNOTS('',3,(#225,#226,#227,#228),.UNSPECIFIED.,
 .F.,.F.,(4,4),(0.,1.),.UNSPECIFIED.);
#25=B_SPLINE_CURVE_WITH_KNOTS('',3,(#230,#231,#232,#233),.UNSPECIFIED.,
 .F.,.F.,(4,4),(0.,1.),.UNSPECIFIED.);
#26=B_SPLINE_CURVE_WITH_KNOTS('',3,(#245,#246,#247,#248),.UNSPECIFIED.,
 .F.,.F.,(4,4),(0.,1.),.UNSPECIFIED.);
#27=B_SPLINE_CURVE_WITH_KNOTS('',3,(#250,#251,#252,#253),.UNSPECIFIED.,
 .F.,.F.,(4,4),(0.000854883522120968,1.),.UNSPECIFIED.);
#28=B_SPLINE_CURVE_WITH_KNOTS('',3,(#255,#256,#257,#258),.UNSPECIFIED.,
 .F.,.F.,(4,4),(0.,1.),.UNSPECIFIED.);
#29=B_SPLINE_CURVE_WITH_KNOTS('',3,(#267,#268,#269,#270),.UNSPECIFIED.,
 .F.,.F.,(4,4),(0.,1.),.UNSPECIFIED.);
#30=B_SPLINE_CURVE_WITH_KNOTS('',3,(#272,#273,#274,#275),.UNSPECIFIED.,
 .F.,.F.,(4,4),(0.,0.224914849943671),.UNSPECIFIED.);
#31=B_SPLINE_CURVE_WITH_KNOTS('',3,(#284,#285,#286,#287),.UNSPECIFIED.,
 .F.,.F.,(4,4),(0.,1.),.UNSPECIFIED.);
#32=B_SPLINE_CURVE_WITH_KNOTS('',3,(#289,#290,#291,#292),.UNSPECIFIED.,
 .F.,.F.,(4,4),(0.682378397303378,0.999998963768624),.UNSPECIFIED.);
#33=ORIENTED_EDGE('',*,*,#73,.T.);
#34=ORIENTED_EDGE('',*,*,#74,.F.);
#35=ORIENTED_EDGE('',*,*,#75,.T.);
#36=ORIENTED_EDGE('',*,*,#76,.F.);
#37=ORIENTED_EDGE('',*,*,#77,.F.);
#38=ORIENTED_EDGE('',*,*,#78,.F.);
#39=ORIENTED_EDGE('',*,*,#79,.F.);
#40=ORIENTED_EDGE('',*,*,#73,.F.);
#41=ORIENTED_EDGE('',*,*,#80,.F.);
#42=ORIENTED_EDGE('',*,*,#81,.F.);
#43=ORIENTED_EDGE('',*,*,#78,.T.);
#44=ORIENTED_EDGE('',*,*,#82,.T.);
#45=ORIENTED_EDGE('',*,*,#83,.T.);
#46=ORIENTED_EDGE('',*,*,#84,.F.);
#47=ORIENTED_EDGE('',*,*,#79,.T.);
#48=ORIENTED_EDGE('',*,*,#81,.T.);
#49=ORIENTED_EDGE('',*,*,#85,.T.);
#50=ORIENTED_EDGE('',*,*,#82,.F.);
#51=ORIENTED_EDGE('',*,*,#77,.T.);
#52=ORIENTED_EDGE('',*,*,#86,.T.);
#53=ORIENTED_EDGE('',*,*,#87,.T.);
#54=ORIENTED_EDGE('',*,*,#80,.T.);
#55=ORIENTED_EDGE('',*,*,#85,.F.);
#56=ORIENTED_EDGE('',*,*,#83,.F.);
#57=ORIENTED_EDGE('',*,*,#87,.F.);
#58=ORIENTED_EDGE('',*,*,#88,.F.);
#59=ORIENTED_EDGE('',*,*,#89,.T.);
#60=ORIENTED_EDGE('',*,*,#90,.F.);
#61=ORIENTED_EDGE('',*,*,#86,.F.);
#62=ORIENTED_EDGE('',*,*,#76,.T.);
#63=ORIENTED_EDGE('',*,*,#91,.T.);
#64=ORIENTED_EDGE('',*,*,#88,.T.);
#65=ORIENTED_EDGE('',*,*,#75,.F.);
#66=ORIENTED_EDGE('',*,*,#92,.T.);
#67=ORIENTED_EDGE('',*,*,#89,.F.);
#68=ORIENTED_EDGE('',*,*,#91,.F.);
#69=ORIENTED_EDGE('',*,*,#92,.F.);
#70=ORIENTED_EDGE('',*,*,#74,.T.);
#71=ORIENTED_EDGE('',*,*,#84,.T.);
#72=ORIENTED_EDGE('',*,*,#90,.T.);
#73=EDGE_CURVE('',#93,#93,#107,.T.);
#74=EDGE_CURVE('',#94,#95,#108,.T.);
#75=EDGE_CURVE('',#94,#96,#109,.T.);
#76=EDGE_CURVE('',#97,#96,#110,.T.);
#77=EDGE_CURVE('',#98,#97,#23,.T.);
#78=EDGE_CURVE('',#99,#98,#24,.T.);
#79=EDGE_CURVE('',#95,#99,#25,.T.);
#80=EDGE_CURVE('',#100,#100,#111,.T.);
#81=EDGE_CURVE('',#99,#101,#26,.F.);
#82=EDGE_CURVE('',#98,#102,#27,.T.);
#83=EDGE_CURVE('',#102,#101,#28,.T.);
#84=EDGE_CURVE('',#95,#103,#29,.T.);
#85=EDGE_CURVE('',#101,#103,#30,.T.);
#86=EDGE_CURVE('',#97,#104,#31,.F.);
#87=EDGE_CURVE('',#104,#102,#32,.T.);
#88=EDGE_CURVE('',#105,#104,#112,.T.);
#89=EDGE_CURVE('',#105,#106,#113,.T.);
#90=EDGE_CURVE('',#103,#106,#114,.T.);
#91=EDGE_CURVE('',#96,#105,#12,.T.);
#92=EDGE_CURVE('',#94,#106,#13,.T.);
#93=VERTEX_POINT('',#212);
#94=VERTEX_POINT('',#214);
#95=VERTEX_POINT('',#215);
#96=VERTEX_POINT('',#217);
#97=VERTEX_POINT('',#219);
#98=VERTEX_POINT('',#224);
#99=VERTEX_POINT('',#229);
#100=VERTEX_POINT('',#236);
#101=VERTEX_POINT('',#249);
#102=VERTEX_POINT('',#254);
#103=VERTEX_POINT('',#271);
#104=VERTEX_POINT('',#288);
#105=VERTEX_POINT('',#295);
#106=VERTEX_POINT('',#297);
#107=CIRCLE('',#164,0.0026);
#108=CIRCLE('',#165,0.005);
#109=CIRCLE('',#166,0.0126063);
#110=CIRCLE('',#167,0.005);
#111=CIRCLE('',#169,0.0026);
#112=CIRCLE('',#171,0.005);
#113=CIRCLE('',#172,0.0126063);
#114=CIRCLE('',#173,0.005);
#115=EDGE_LOOP('',(#33));
#116=EDGE_LOOP('',(#34,#35,#36,#37,#38,#39));
#117=EDGE_LOOP('',(#40));
#118=EDGE_LOOP('',(#41));
#119=EDGE_LOOP('',(#42,#43,#44,#45));
#120=EDGE_LOOP('',(#46,#47,#48,#49));
#121=EDGE_LOOP('',(#50,#51,#52,#53));
#122=EDGE_LOOP('',(#54));
#123=EDGE_LOOP('',(#55,#56,#57,#58,#59,#60));
#124=EDGE_LOOP('',(#61,#62,#63,#64));
#125=EDGE_LOOP('',(#65,#66,#67,#68));
#126=EDGE_LOOP('',(#69,#70,#71,#72));
#127=FACE_BOUND('',#115,.T.);
#128=FACE_BOUND('',#116,.T.);
#129=FACE_BOUND('',#117,.T.);
#130=FACE_BOUND('',#118,.T.);
#131=FACE_BOUND('',#119,.T.);
#132=FACE_BOUND('',#120,.T.);
#133=FACE_BOUND('',#121,.T.);
#134=FACE_BOUND('',#122,.T.);
#135=FACE_BOUND('',#123,.T.);
#136=FACE_BOUND('',#124,.T.);
#137=FACE_BOUND('',#125,.T.);
#138=FACE_BOUND('',#126,.T.);
#139=PLANE('',#163);
#140=PLANE('',#170);
#141=ADVANCED_FACE('',(#127,#128),#139,.F.);
#142=ADVANCED_FACE('',(#129,#130),#19,.F.);
#143=ADVANCED_FACE('',(#131),#16,.F.);
#144=ADVANCED_FACE('',(#132),#17,.F.);
#145=ADVANCED_FACE('',(#133),#18,.F.);
#146=ADVANCED_FACE('',(#134,#135),#140,.F.);
#147=ADVANCED_FACE('',(#136),#20,.T.);
#148=ADVANCED_FACE('',(#137),#21,.F.);
#149=ADVANCED_FACE('',(#138),#22,.T.);
#150=CLOSED_SHELL('',(#141,#142,#143,#144,#145,#146,#147,#148,#149));
#151=STYLED_ITEM('',(#152),#159);
#152=PRESENTATION_STYLE_ASSIGNMENT((#153));
#153=SURFACE_STYLE_USAGE(.BOTH.,#154);
#154=SURFACE_SIDE_STYLE('',(#155));
#155=SURFACE_STYLE_FILL_AREA(#156);
#156=FILL_AREA_STYLE('',(#157));
#157=FILL_AREA_STYLE_COLOUR('',#158);
#158=COLOUR_RGB('',0.231372549019608,0.380392156862745,0.705882352941177);
#159=MANIFOLD_SOLID_BREP('Case Spacer',#150);
#160=SHAPE_DEFINITION_REPRESENTATION(#310,#161);
#161=SHAPE_REPRESENTATION('Case Spacer',(#162),#305);
#162=AXIS2_PLACEMENT_3D('',#209,#177,#178);
#163=AXIS2_PLACEMENT_3D('',#210,#179,#180);
#164=AXIS2_PLACEMENT_3D('',#211,#181,#182);
#165=AXIS2_PLACEMENT_3D('',#213,#183,#184);
#166=AXIS2_PLACEMENT_3D('',#216,#185,#186);
#167=AXIS2_PLACEMENT_3D('',#218,#187,#188);
#168=AXIS2_PLACEMENT_3D('',#234,#189,#190);
#169=AXIS2_PLACEMENT_3D('',#235,#191,#192);
#170=AXIS2_PLACEMENT_3D('',#293,#193,#194);
#171=AXIS2_PLACEMENT_3D('',#294,#195,#196);
#172=AXIS2_PLACEMENT_3D('',#296,#197,#198);
#173=AXIS2_PLACEMENT_3D('',#298,#199,#200);
#174=AXIS2_PLACEMENT_3D('',#299,#201,#202);
#175=AXIS2_PLACEMENT_3D('',#301,#204,#205);
#176=AXIS2_PLACEMENT_3D('',#303,#207,#208);
#177=DIRECTION('',(0.,0.,1.));
#178=DIRECTION('',(1.,0.,0.));
#179=DIRECTION('',(-1.04083408558607E-17,-5.55111512312579E-17,-1.));
#180=DIRECTION('',(1.,-5.77778983316163E-34,-1.04083408558607E-17));
#181=DIRECTION('',(-1.04083408558607E-17,-5.55111512312579E-17,-1.));
#182=DIRECTION('',(0.,1.,-5.55111512312579E-17));
#183=DIRECTION('',(-1.04083408558607E-17,-5.55111512312579E-17,-1.));
#184=DIRECTION('',(0.,1.,-5.55111512312579E-17));
#185=DIRECTION('',(-1.04083408558607E-17,-5.55111512312579E-17,-1.));
#186=DIRECTION('',(0.,1.,-5.55111512312579E-17));
#187=DIRECTION('',(-1.04083408558607E-17,-5.55111512312579E-17,-1.));
#188=DIRECTION('',(0.,1.,-5.55111512312579E-17));
#189=DIRECTION('',(0.,0.,-1.));
#190=DIRECTION('',(-1.,0.,0.));
#191=DIRECTION('',(0.,0.,1.));
#192=DIRECTION('',(1.,0.,0.));
#193=DIRECTION('',(0.,0.,1.));
#194=DIRECTION('',(1.,0.,0.));
#195=DIRECTION('',(0.,0.,1.));
#196=DIRECTION('',(1.,0.,0.));
#197=DIRECTION('',(0.,0.,1.));
#198=DIRECTION('',(1.,0.,0.));
#199=DIRECTION('',(0.,0.,1.));
#200=DIRECTION('',(1.,0.,0.));
#201=DIRECTION('',(0.,0.,-1.));
#202=DIRECTION('',(-1.,0.,0.));
#203=DIRECTION('',(0.,0.,-1.));
#204=DIRECTION('',(0.,0.,-1.));
#205=DIRECTION('',(-1.,0.,0.));
#206=DIRECTION('',(0.,0.,-1.));
#207=DIRECTION('',(0.,0.,-1.));
#208=DIRECTION('',(-1.,0.,0.));
#209=CARTESIAN_POINT('',(0.,0.,0.));
#210=CARTESIAN_POINT('',(0.0296914158177284,-0.0328665293434124,0.05869375));
#211=CARTESIAN_POINT('',(0.0239140055437834,-0.0493305501798224,0.05869375));
#212=CARTESIAN_POINT('',(0.0239140055437834,-0.0467305501798224,0.05869375));
#213=CARTESIAN_POINT('',(0.0239140055437834,-0.0493305501798224,0.05869375));
#214=CARTESIAN_POINT('',(0.028896762730036,-0.0497454366978584,0.05869375));
#215=CARTESIAN_POINT('',(0.0189155695990755,-0.0492054977648277,0.0586942499999925));
#216=CARTESIAN_POINT('',(0.0365632527718917,-0.0397382527718917,0.05869375));
#217=CARTESIAN_POINT('',(0.0248588012233537,-0.0444206254223678,0.05869375));
#218=CARTESIAN_POINT('',(0.0239140055437834,-0.0493305501798224,0.05869375));
#219=CARTESIAN_POINT('',(0.0208944140431485,-0.0453453190485963,0.05869425));
#220=CARTESIAN_POINT('',(0.020367728956372,-0.0461516622271606,0.05869375));
#221=CARTESIAN_POINT('',(0.0205843314127875,-0.0459100267145535,0.05869375));
#222=CARTESIAN_POINT('',(0.0207598931083797,-0.045641245655032,0.05869375));
#223=CARTESIAN_POINT('',(0.0208944140431485,-0.0453453190485963,0.05869375));
#224=CARTESIAN_POINT('',(0.0203677294853448,-0.0461516616370525,0.05869425));
#225=CARTESIAN_POINT('',(0.0192627474623307,-0.048307220071929,0.05869375));
#226=CARTESIAN_POINT('',(0.0194391452440509,-0.0475054537587447,0.05869375));
#227=CARTESIAN_POINT('',(0.0198197942622604,-0.0467629225188395,0.05869375));
#228=CARTESIAN_POINT('',(0.020367728956372,-0.0461516622271607,0.05869375));
#229=CARTESIAN_POINT('',(0.0192627474623307,-0.048307220071929,0.05869425));
#230=CARTESIAN_POINT('',(0.0189155695991182,-0.0492054977648409,0.05869375));
#231=CARTESIAN_POINT('',(0.0190772124809834,-0.0489239431918633,0.05869375));
#232=CARTESIAN_POINT('',(0.0191929384353876,-0.048624517294226,0.05869375));
#233=CARTESIAN_POINT('',(0.0192627474623307,-0.048307220071929,0.05869375));
#234=CARTESIAN_POINT('',(0.0239140055437834,-0.0493305501798224,0.05869575));
#235=CARTESIAN_POINT('',(0.0239140055437834,-0.0493305501798224,0.05635625));
#236=CARTESIAN_POINT('',(0.0265140055437834,-0.0493305501798224,0.05635625));
#237=CARTESIAN_POINT('',(0.020367728956372,-0.0461516622271607,0.058709787));
#238=CARTESIAN_POINT('',(0.020367728956372,-0.0461516622271607,0.05635625));
#239=CARTESIAN_POINT('',(0.0198200281986985,-0.046762661546032,0.058709787));
#240=CARTESIAN_POINT('',(0.0198200281986985,-0.046762661546032,0.05635625));
#241=CARTESIAN_POINT('',(0.0194392204814759,-0.0475051117882711,0.058709787));
#242=CARTESIAN_POINT('',(0.0194392204814759,-0.0475051117882711,0.05635625));
#243=CARTESIAN_POINT('',(0.0192627474623306,-0.048307220071929,0.058709787));
#244=CARTESIAN_POINT('',(0.0192627474623306,-0.048307220071929,0.05635625));
#245=CARTESIAN_POINT('',(0.0192627474623306,-0.048307220071929,0.05635625));
#246=CARTESIAN_POINT('',(0.0192627474623306,-0.048307220071929,0.0571360833333333));
#247=CARTESIAN_POINT('',(0.0192627474623306,-0.048307220071929,0.0579159166666667));
#248=CARTESIAN_POINT('',(0.0192627474623306,-0.048307220071929,0.05869575));
#249=CARTESIAN_POINT('',(0.0192627474623307,-0.048307220071929,0.05635625));
#250=CARTESIAN_POINT('',(0.020367728956372,-0.0461516622271607,0.05869375));
#251=CARTESIAN_POINT('',(0.020367728956372,-0.0461516622271607,0.0579145833333333));
#252=CARTESIAN_POINT('',(0.020367728956372,-0.0461516622271607,0.0571354166666667));
#253=CARTESIAN_POINT('',(0.020367728956372,-0.0461516622271607,0.05635625));
#254=CARTESIAN_POINT('',(0.0203677310722633,-0.046151659866728,0.05635625));
#255=CARTESIAN_POINT('',(0.0203677289563719,-0.0461516622271607,0.05635625));
#256=CARTESIAN_POINT('',(0.0198200281986986,-0.046762661546032,0.05635625));
#257=CARTESIAN_POINT('',(0.0194392204814759,-0.0475051117882711,0.05635625));
#258=CARTESIAN_POINT('',(0.0192627474623306,-0.048307220071929,0.05635625));
#259=CARTESIAN_POINT('',(0.0192627474623307,-0.048307220071929,0.058709787));
#260=CARTESIAN_POINT('',(0.0192627474623307,-0.048307220071929,0.05635625));
#261=CARTESIAN_POINT('',(0.0191933877942961,-0.048622474860178,0.058709787));
#262=CARTESIAN_POINT('',(0.0191933877942961,-0.048622474860178,0.05635625));
#263=CARTESIAN_POINT('',(0.0190762791835805,-0.0489255688381567,0.058709787));
#264=CARTESIAN_POINT('',(0.0190762791835805,-0.0489255688381567,0.05635625));
#265=CARTESIAN_POINT('',(0.0189155695991182,-0.0492054977648409,0.058709787));
#266=CARTESIAN_POINT('',(0.0189155695991182,-0.0492054977648409,0.05635625));
#267=CARTESIAN_POINT('',(0.0189155695990599,-0.0492054977648256,0.05869575));
#268=CARTESIAN_POINT('',(0.0189155695990599,-0.0492054977648256,0.0579159166666667));
#269=CARTESIAN_POINT('',(0.0189155695990599,-0.0492054977648256,0.0571360833333333));
#270=CARTESIAN_POINT('',(0.0189155695990599,-0.0492054977648256,0.05635625));
#271=CARTESIAN_POINT('',(0.018915569599093,-0.0492054977648264,0.05635625));
#272=CARTESIAN_POINT('',(0.0192627474623307,-0.048307220071929,0.05635625));
#273=CARTESIAN_POINT('',(0.0191933877942961,-0.0486224748601779,0.05635625));
#274=CARTESIAN_POINT('',(0.0190762791835805,-0.0489255688381567,0.05635625));
#275=CARTESIAN_POINT('',(0.0189155695991182,-0.0492054977648409,0.05635625));
#276=CARTESIAN_POINT('',(0.0208944140431485,-0.0453453190485963,0.058709787));
#277=CARTESIAN_POINT('',(0.0208944140431485,-0.0453453190485963,0.05635625));
#278=CARTESIAN_POINT('',(0.0207611492913642,-0.0456384822340943,0.058709787));
#279=CARTESIAN_POINT('',(0.0207611492913642,-0.0456384822340943,0.05635625));
#280=CARTESIAN_POINT('',(0.0205839141035338,-0.0459104922528353,0.058709787));
#281=CARTESIAN_POINT('',(0.0205839141035338,-0.0459104922528353,0.05635625));
#282=CARTESIAN_POINT('',(0.020367728956372,-0.0461516622271607,0.058709787));
#283=CARTESIAN_POINT('',(0.020367728956372,-0.0461516622271607,0.05635625));
#284=CARTESIAN_POINT('',(0.0208944140431485,-0.0453453190485963,0.05635625));
#285=CARTESIAN_POINT('',(0.0208944140431485,-0.0453453190485963,0.0571360833333333));
#286=CARTESIAN_POINT('',(0.0208944140431485,-0.0453453190485963,0.0579159166666667));
#287=CARTESIAN_POINT('',(0.0208944140431485,-0.0453453190485963,0.05869575));
#288=CARTESIAN_POINT('',(0.0208944140431485,-0.0453453190485963,0.05635625));
#289=CARTESIAN_POINT('',(0.0208944140431485,-0.0453453190485963,0.05635625));
#290=CARTESIAN_POINT('',(0.0207611497261367,-0.0456384812776578,0.05635625));
#291=CARTESIAN_POINT('',(0.0205839152502509,-0.0459104904967457,0.05635625));
#292=CARTESIAN_POINT('',(0.0203677310722642,-0.0461516598667294,0.05635625));
#293=CARTESIAN_POINT('',(-0.0015875,-0.0015875,0.05635625));
#294=CARTESIAN_POINT('',(0.0239140055437834,-0.0493305501798224,0.05635625));
#295=CARTESIAN_POINT('',(0.0248588012233537,-0.0444206254223678,0.05635625));
#296=CARTESIAN_POINT('',(0.0365632527718917,-0.0397382527718917,0.05635625));
#297=CARTESIAN_POINT('',(0.028896762730036,-0.0497454366978584,0.05635625));
#298=CARTESIAN_POINT('',(0.0239140055437834,-0.0493305501798224,0.05635625));
#299=CARTESIAN_POINT('',(0.0239140055437834,-0.0493305501798224,0.05869575));
#300=CARTESIAN_POINT('',(0.0248588012233537,-0.0444206254223678,0.05869575));
#301=CARTESIAN_POINT('',(0.0365632527718917,-0.0397382527718917,0.05869575));
#302=CARTESIAN_POINT('',(0.028896762730036,-0.0497454366978584,0.05869575));
#303=CARTESIAN_POINT('',(0.0239140055437834,-0.0493305501798224,0.05869575));
#304=MECHANICAL_DESIGN_GEOMETRIC_PRESENTATION_REPRESENTATION('',(#151),
#305);
#305=(
GEOMETRIC_REPRESENTATION_CONTEXT(3)
GLOBAL_UNCERTAINTY_ASSIGNED_CONTEXT((#306))
GLOBAL_UNIT_ASSIGNED_CONTEXT((#309,#308,#307))
REPRESENTATION_CONTEXT('Case Spacer','TOP_LEVEL_ASSEMBLY_PART')
);
#306=UNCERTAINTY_MEASURE_WITH_UNIT(LENGTH_MEASURE(5.E-6),#309,
'DISTANCE_ACCURACY_VALUE','Maximum Tolerance applied to model');
#307=(
NAMED_UNIT(*)
SI_UNIT($,.STERADIAN.)
SOLID_ANGLE_UNIT()
);
#308=(
NAMED_UNIT(*)
PLANE_ANGLE_UNIT()
SI_UNIT($,.RADIAN.)
);
#309=(
LENGTH_UNIT()
NAMED_UNIT(*)
SI_UNIT($,.METRE.)
);
#310=PRODUCT_DEFINITION_SHAPE('','',#311);
#311=PRODUCT_DEFINITION('','',#313,#312);
#312=PRODUCT_DEFINITION_CONTEXT('',#319,'design');
#313=PRODUCT_DEFINITION_FORMATION_WITH_SPECIFIED_SOURCE('','',#315,
 .NOT_KNOWN.);
#314=PRODUCT_RELATED_PRODUCT_CATEGORY('','',(#315));
#315=PRODUCT('Case Spacer','Case Spacer','Case Spacer',(#317));
#316=PRODUCT_CATEGORY('','');
#317=PRODUCT_CONTEXT('',#319,'mechanical');
#318=APPLICATION_PROTOCOL_DEFINITION('international standard',
'ap242_managed_model_based_3d_engineering',2011,#319);
#319=APPLICATION_CONTEXT('managed model based 3d engineering');
ENDSEC;
END-ISO-10303-21;
